Tabulature for "Rock Me"
Off the "95YNF Pirate album"
Written by Avatar

Transcribed by Bryan Holland realsavatage

PO = Pull Off
HO = Hammer On
SL = Slide
PH = Pick Harmonic
B = Bend (note)
PM = Palm Mute


      

Intro
      (Octave)           3x     (Hand Clapping in Background)
                                           
|-----------------------------------------------------------------------------
|-----------------------------------------------------------------------------
|-----8----10----8----------7----8-----7----8---------------------------------       SL
|-----------------------------------------------------------------------------                             SL         SL
|-----6----8-----6----5-5-5-5----6-6-6-5----6-6-6-----------------------------
|-----------------------------------------------------------------------------
      
                      
Intro (cont')

(Octave)    1x     
                 D#        C     (Build)                  
|-----------------------------------------------------------------------------
|-----------------------------------------------------------------------------                            PM
|-----8----10----8---------5--5--5--5--5--5--5--------------------------------       SL            SL
|----------------8---------5--5--5--5--5--5--5-------------------------------                            
|-----6----8-----6---------3--3--3--3--3--3--3--------------------------------
|-----------------------------------------------------------------------------


Verse           (Repeat 4x)                            (end of 4th x)
     F         C           A         B                F     C    B
                                    
|-----------------------------------------------------------------------------
|-----------------------------------------------------------------------------
|--------------5-----------2---------3----------------------5----3-3-3-3------
|---3----------5-----------2---------3----------------3-----5----3-3-3-3------
|---3----------3-----------0---------1----------------3-----3----1-1-1-1------
|---1-------------------------------------------------1-----------------------
      Baby's  Precious    Only    Seventeen....          Come on baby it'll 
                                                         be alright...
       
Chorus               (repeat 3x)                   (end of 3rd x)
            F                                        C       B

|-----------------------------------------------------------------------------
|-----------------------------------------------------------------------------
|----------------------------------------------------5-------3----------------
|-----------3----3-----------------------------------5-------3----------------
|-----------3----3------1-1--------------------------3-------1----------------
|-----------1----1------------5---3---1--------------------------------------- 
       Gonna Rock Me                             t  o  n i g h t
                       


Verse
Chorus
Solo (Chords: F  A  B  2x)
Verse (last 2x of verse)
Verse
Chorus (continues till fadeout)