Tabulature for "Summer's Rain"
Off the album "Gutter Ballet"
Written by Savatage

Transcribed by Patrick van der Horst boudie@xoommail.com


-2--------------------2--0------------0----2---0------------0--0--------------
-----5--3--2-----2h3--------3----------3---------3-2---2h3--------0-----------
-------------4----------------4---------4---------------------------3---------
---------------4--------------------------------------------------------------
-2-----------------------0----------------------------------------------------
-------------------------------------------3-------------------3--------------


-2--------------------2--0------------0----2---0------------0--0--------------
-----5--3--2-----2h3--------3----------3---------3-2---2h3--------0-----------
-------------4----------------4---------4---------------------------3---------
---------------4--------------------------------------------------------------
-2-----------------------0----------------------------------------------------
-------------------------------------------3-------------------3--------------
Standing alone in a dream...                                                                              

------------------------------------------------------------------------------
-----------------------7/8~~/10-------------------------------3-----3---3---3-
-x\--4------------7---------------4---4----------7p6---6h7\---0-----2---2---2-
-x\--4-----4------7---------------4---4--------------9--------0---------------
-----2-----4------5---------------2---2---------------------------------------
-----------2--------------------------------------------------3---------------
I'll find you... etc.                                                                    

------------------------------------------------------------------------------
---------------------8p7---8p7---7--h8\----------3p2---2h3-------------5-5-5--
--2----------------------9-----9--------4--4---------4-----------------4-4-4--
--2------------2------------------------4--4------------------------2---------
--0------------2------------------------2--2------------------------2---------
---------3--2--0----------------------------------------------3--2--0---------
                                                                              
 _____________  ____________
[1.            [2.
--------------|---------------|-----------------------------------------------

--/7---7------|-7---7---------|-/7p5---5---7p5---5----7p5---------------------
--/6---6-----0|-6---6------2--|------7---------7---h7------7--6---------------
-------4-----0|-4---4------2--|-----------------------------------7--4--------
--------------|------------0--|-----------------------------------------------
--------------|---------------|-----------------------------------------------
Play 1. Then repaet all       |                                     In a Sum-
And the part with 2.          |                                     mer's Rain
                              |-----------------------------------------------
                              |-----------------------------------------------
                              |--4---4-----2---2----------------------2-------
                              |--4---4-----2---2-----5-----5----------2-------
                              |--2---2-2-0-0---0-0---5-----5----------0-------
                              |--------------------3-3-----3------------------
                                                                              

|-----------------------------------------------------------------------------
|/7p5---5---7p5---5----7p5--------------/7p5---5---7p5---5----7p5-------------
|-----7---------7---h7-----7-6---------------7---------7---h7------7--6-------
|-------------------------------7-4--------------------------------------7--4-
|-----------------------------------------------------------------------------
|-----------------------------------------------------------------------------
|                               In a Sum-
|                               mer's Rain 
|-----------------------------------------------------------------------------
|-----------------------------------------------------------------------------
|-4---4-----2---2---------------------2---4--4-----2---2----------------------
|-4---4-----2---2-----5----5----------2---4--4-----2---2-----5-----5----------
|-2---2-2-0-0---0-0---5----5----------0---2--2-2-0-0---0-0---5-----5----------
|-------------------3-3----3-------------------------------3-3-----3----------
                                                                              
Solo guitar
|-----------------------------------------------------------------------------
|7---5---7b8----5---7b8----5---7b8---p5---------------------------------------
|-----------------------------------------9b--9b--9b--9b--9b--9b--9b--9-9-9-7-
|-----------------------------------------------------------------------------
|-----------------------------------------------------------------------------
|-----------------------------------------------------------------------------
|                                                                             
|Rhythm guitar
|-----------------------------------------------------------------------------
|-----------------------------------------------------------------------------
|4-------4-----2---2------------------------------------------------------2---

|4-------4-----2---2-----5----5----5------4-------------------------------2---
|2-------2-2-0-0---0-0---5----5----5------4-------------------------------0---
|----------------------3-3----3----3------2-----------------------------------
|Other solo guitar
|-----------------------------------------------------------------------------
|12---10--12b14~-10---12b~~-10--12b------------------------------------------
|-----------------------------------------------------------------------------
|-----------------------------------------------------------------------------
|-----------------------------------------------------------------------------
|-----------------------------------------------------------------------------

                                                                             
Solo guitar
|----------------14-17--15--14--15p14h15p14\13--------------------------------
|10b12---x----15-------------------------------15b17--15b17r15--\7-------17---
|----------16---------------------------------------------------------9/------
|-----------------------------------------------------------------------------
|-----------------------------------------------------------------------------
|-----------------------------------------------------------------------------
|                                                                             
|Clean guitar
|-----------------------------------------------------------------------------
|-------------------------------------------------------8----7------------7---
|---------------------------------------------------------------------7-------
|-----------------------------------------------------------------------------

|-----------------------------------------------------------------------------
|-----------------------------------------------------------------------------
|                                                                             
|Rhythm guitar
|-----------------------------------------------------------------------------
|-----------------------------------------------------------------------------
|4-------4-------4---------------7/-------9-----9---------9-------------------
|4-------4--4--4-4--4-4-4-4------7/-------9-----9---9-9-9-9-------------------
|2-------2--2--2-2--2-2-2-2------5/-------7-----7---7-7-7-7-------------------
|-----------------------------------------------------------------------------
                                                                              

|---------------------------------10-14/19--17h19p17p15--17p15\14h15p14\12----
|19-20-19b20\------------------12---------------------------------------------
|---------------------------11------------------------------------------------
|----------------------9-12---------------------------------------------------
|--------------------9--------------------------------------------------------
|---------------7-10----------------------------------------------------------
|                                                                             
|
|-----------------------------------------------------------------------------
|8--------------------3------------2---------------------------------------8--
|-----------------------------------------4-----4-----------------------------
|--------------------------------------------4--------------------------------
|-----------------------------------------------------------------------------
|-----------------------------------------------------------------------------
|                                                                             
|

|-----------------------------------------------------------------------------
|-----------------------------------------------------------------------------
|--------7-----\4----------------4-------------------------7/9----------------
|--------7-----\4---4---4--4--4--4---------4---4---4---4---7/9---------9------
|--------5-----\2---2---2--2--2--2---------2---2---2---2---5/7---------7------
|-----------------------------------------------------------------------------
                                                                              

|19p12h17--19p17p12--19p12h15--19p15p12--19p12h17--19p17p12--19p12h15---------
|-----------------------------------------------------------------------------
|-----------------------------------9-----------------------------------------
|9---------9-------------9----------9--------9---------9---------9------------
|7---------7-------------7----------7--------7---------7---------7------------
|-----------------------------------------------------------------------------
|                                                                             
|
|-----------------------------------------------------------------------------
|-------------------10------------------------------8-------------------------
|---------------------------------------------------------------7-------------
|-----------------------------------------------------------------------------
|-----------------------------------------------------------------------------
|-----------------------------------------------------------------------------
                                                                             

|19p15p12--19p12h17--19p17p12--19p12------------------------------------------
|--------------------------------------19p17--19p15--19p15--19p14--19p12------
|---------------------------------7------4------------------------------------
|-9-----------9---------9---------7------4-----4------4-----4------4-------4--
|-7-----------7---------7---------5------2-----2------2-----2------2-------2--
|-----------------------------------------------------------------------------
|                                                                             
|
|-----------------------------------------------------------------------------
|---8-------------------------------------------------------------------------
|-----------------------------------------------------------------------------
|-----------------------------------------------------------------------------
|-----------------------------------------------------------------------------
|-----------------------------------------------------------------------------
                                                                              

|-----------------------------------------------------------------------------
|19p14--19p14b15r14----p12----------------------------------------------------
|--------------------------14p12--14b16r14p12---14p12\11h12p11\9h11p9\7--9/---
|-----------------------------------------------------------------------------
|-----------------------------------------------------------------------------
|-----------------------------------------------------------------------------
|                                                                             
|
|-----------------------------------------------------------------------------
|--3-------------2------------------------------------------------------------
|---------------------------4-------------4-----------------------------------
|----------------------------------4------------------------------------------
|-----------------------------------------------------------------------------
|-----------------------------------------------------------------------------
|                                                                            
|
|-----------------------------------------------------------------------------
|-----------------------------------------------------------------------------
|-----------------4-----------------------------------7--------------/9--9----
|4---4----4-------4---------4------4------4------4----7--------------/9--9----
|2---2----2-------2---------2------2------2------2----5--------------/7--7----
|-----------------------------------------------------------------------------
                                                                              

|---------h12h14h15p14p12-------------h12h14h15p14p12-------------------------
|13h14h15-----------------15p12h14h15-----------------15p12h14h15-------------
|9-------------------------------9--------------------------------------------
|9------9------9-------9---------9---------9--------------9-------------------
|7------7------7-------7---------7---------7--------------7-------------------
|-----------------------------------------------------------------------------
|                                                                             
|
|-----------------------------------------------------------------------------
|8----------------------------10----------------------8---------7-------------
|-----------------------------------------------------------------------------
|-----------------------------------------------------------------------------
|-----------------------------------------------------------------------------
|-----------------------------------------------------------------------------
                                                                             

|h12h14h15p14p12----12-12-----------------------------------------------------
|----------------15--------15b17r15---15\-------------------------------------
|-----------------7-----------------------------------------------------------
|-9-------9-------7-----------------------------------------------------------
|-7-------7-------5-----------------------------7h9h10p9p7--------------------
|------------------------------------------7h10------------10p7h9h10----------

|                                                                             
|
|-----------------------------------------------------------------------------
|---------8-----------------------------------------3-------------------------
|-----------------------------------------------------------------------------
|-----------------------------------------------------------------------------
|-----------------------------------------------------------------------------
|-----------------------------------------------------------------------------
|                                                                           
|
|-----------------------------------------------------------------------------
|-----------------------------------------------------------------------------
|-------------------------------------------4---------------------------------
|-------------------------------------------4-----4--------4------------------
|-------------------------------------------2-----2--------2------------------
|-----------------------------------------------------------------------------
                                                                              

|-----------------------------------------------------------------------------
|----------------------------------------------------------12h14-12h14h15-----
|--------------------------9h11h12p9------------9h11h12/12--------------------
|----------9h11h12-9h11h12-----------12p9p11h12-------------------------------
|7h9h10/12--------------------------------------------------------------------
|-----------------------------------------------------------------------------
|                                                                             
|
|-----------------------------------------------------------------------------
|-------2---------------------------------------------------------------------
|-----------------------4---------------------4-------------------------------
|----------------------------------4------------------------------------------
|-----------------------------------------------------------------------------
|-----------------------------------------------------------------------------
|                                                                            
|
|-----------------------------------------------------------------------------
|-----------------------------------------------------------------------------
|----------4---------------------------------------4---------7-----/----------
|4---------4---------4---------4---------4---------4---------7-----/----------
|2---------2---------2---------2---------2---------2---------5-----/----------
|-----------------------------------------------------------------------------
                                                                              

|12h14h15p14p12p14p12----12-------------------12-15-14b15r14--10b12r10p7------
|---------------------15----15b17-15b17---r15---------------------------------
|9---------------------9-----------9-----------------------7---4--4---4-------
|9---------------------9-----------9-----------------------7---4--4---4-------
|7---------------------7-----------7-----------------------5---2--2---2-------
|-----------------------------------------------------------------------------
|                                                                            
|
|-----------------------------------------------------------------------------
|----------------------------------8----7-------8-----------------------------
|-------------------------------------------9---------------------------------
|-----------------------------------------------------------------------------
|-----------------------------------------------------------------------------
|-----------------------------------------------------------------------------
                                                                         

|-----------------------------------------------------------------------------
|10b12--10--10-8-7-8-7---7-----------------------7-----------7----------------
|----------------------9---9-7-9-7-6-7-6-7-9-7-9---9-7-9-7-9---9-7-9----------
|-----------------------------------------------------------------------------
|-----------------------------------------------------------------------------
|-----------------------------------------------------------------------------
|                                                                             
|
|----------------------------------0---------------------3--------------------
|------------------3p2---------------0---------------------3------------------
|----------------------2-------4----------------0------------------2----------
|------------------------------------------------------------------2----------
|------------------------------------------------------------------0----------
|-----------------------------------------------------------------------------
|                                                                             
|
|-----------------------------------------------------------------------------
|-----------------------------------------------------------------------------
|4--4----2--------------------------------------------------------------------
|4--4----2---------------------4-----------------5----------------------------
|2--2----0---------------------4-----------------5----------------------------
|------------------------------2-----------------3----------------------------
                                                                              

|-----------------------------------------------------------------------------
|---------10b12---------------------------------------------------------------
|9b11r9p7---------------------------------------------------------------------

|-----------------------------------------------------------------------------
|-----------------------------------------------------------------------------
|-----------------------------------------------------------------------------
|                                                                             
|
|-----------------------------------------------------------------------------
|----------3------------------------------------------------------------------
|----------4------------------------------------------------------------------
|----------4------------------------------------------------------------------
|----------2------------------------------------------------------------------
|-----------------------------------------------------------------------------
|                                                                             
|
|-----------------------------------------------------------------------------
|-----------------------------------------------------------------------------
|2---------4------------------------------------------------------------------
|2---------4------------------------------------------------------------------
|0---------2------------------------------------------------------------------
|-----------------------------------------------------------------------------
                                                                              
-2--------------------2--0------------0----2---0------------------------------
-----5--3--2-----2h3--------3----------3---------3-2--------------------------
-------------4----------------4---------4--------------x\----4-----------2----
---------------4---------------------------------------x\----4----4------2----
-2-----------------------0-----------------------------------2----4------0----
-------------------------------------------3----------------------2-----------
Sometimes you've got to... etc.

|-----------------------------------------------------------------------------
|/7p5---5---7p5---5----7p5--------------/7p5---5---7p5---5----7p5-------------
|-----7---------7---h7-----7-6---------------7---------7---h7------7--6-------
|-------------------------------7-4--------------------------------------7--4-
|-----------------------------------------------------------------------------
|-----------------------------------------------------------------------------
|                               In a Sum-

|                               mer's Rain 
|-----------------------------------------------------------------------------
|-----------------------------------------------------------------------------
|-4---4-----2---2---------------------2---4--4-----2---2----------------------
|-4---4-----2---2-----5----5----------2---4--4-----2---2-----5-----5----------
|-2---2-2-0-0---0-0---5----5----------0---2--2-2-0-0---0-0---5-----5----------
|-------------------3-3----3-------------------------------3-3-----3----------
                                                                              
|-------------------------------------------------------------------3---3-3---
|/7p5---5---7p5---5----7p5--------------------------3----2----------3---3-3---
|-----7---------7---h7-----7-6----------------------4----2------0---0---0-0---
|-------------------------------7-4-----------------4----2------0-------------
|---------------------------------------------------2----0--------------------
|---------------------------------------------------------------3-------------
|                               In a Sum-
|                               mer's Rain 
|-----------------------------------------------------------------------------
|-----------------------------------------------------------------------------
|-4---4-----2---2-------------------------------------------------------------
|-4---4-----2---2-----5----5--------------------------------------------------
|-2---2-2-0-0---0-0---5----5--------------------------------------------------
|-------------------3-3----3--------------------------------------------------
 
From beginning of this part till the end of song play fill 1
                                        And from here till end play Fill 2
|-----------------------------------------------------------------------------
|/7p5---5---7p5---5----7p5--------------/7p5---5---7p5---5----7p5-------------
|-----7---------7---h7-----7-6---------------7---------7---h7------7--6-------
|-------------------------------7-4--------------------------------------7--4-
|-----------------------------------------------------------------------------
|-----------------------------------------------------------------------------
| Fly Away etc. 
|-----------------------------------------------------------------------------
|-----------------------------------------------------------------------------
|-4---4-----2---2---------------------2---4--4-----2---2----------------------
|-4---4-----2---2-----5----5----------2---4--4-----2---2-----5-----5----------
|-2---2-2-0-0---0-0---5----5----------0---2--2-2-0-0---0-0---5-----5----------
|-------------------3-3----3-------------------------------3-3-----3----------
                                                                              Fill 1                                                                      
------------------------------------------------------------------------------
-19-17-19-15-19-17-19-15-19-17-19-15-19-17-19-15------------------------------
------------------------------------------------------------------------------
------------------------------------------------------------------------------
------------------------------------------------------------------------------
------------------------------------------------------------------------------
                                                                              
Fill 2
-22-21-22-19-22-21-22-19-22-21-22-19-22-21-22-19------------------------------
------------------------------------------------------------------------------
------------------------------------------------------------------------------
------------------------------------------------------------------------------
------------------------------------------------------------------------------
------------------------------------------------------------------------------