Tabulature for "Minus Love"
Off the "95YNF Pirate album"
Written by Avatar

Transcribed by Bryan Holland realsavatage

PO = Pull Off
HO = Hammer On
SL = Slide
PH = Pick Harmonic
B = Bend (note)
PM = Palm Mute


      

      
Intro/Verse
         4x          4x     (2x then verse starts)                                                 
|-------5--------5--------5---------------------------------------------------
|-------6---PO---5---HO---6---------------------------------------------------
|-------5--------5--------5---------------------------------------------------
|-------7--------7--------7---------------------------------------------------
|-----------------------------------------------------------------------------
|-----------------------------------------------------------------------------
                              I walk with you through   the   park...
                                   
        
                                                                    
Pre-Chorus 1
        A

|-----------------------------------------------------------------------------
|-----------------------------------------------------------------------------
|-------2---------------------------------------------------------------------
|-------2---------------------------------------------------------------------
|-------0---------------------------------------------------------------------
|-----------------------------------------------------------------------------
 I can't be your love      I gotta be Minus Love



Verse
       4x          4x      Repeat  4x                                               
|-------5--------5--------5---------------------------------------------------
|-------6---PO---5---HO---7---------------------------------------------------
|-------5--------5--------5---------------------------------------------------
|-------7--------7--------7---------------------------------------------------
|-----------------------------------------------------------------------------
|-----------------------------------------------------------------------------                                
    A kiss from you is like   a    dream...


                                                                
Pre-Chorus2
        G                                       C     G        

|-----------------------------------------------------------------------------
|-------3---------------------------------------------------------------------
|-------0---------------------------------------5-----------------------------
|-------3---------------------------------------5-----5-----------------------
|-----------------------------------------------3-----5-----------------------
|-------3---------------------------------------------3-----------------------               
   Mama told you,  said  I wanna Rock n' Roll            


                                                   
Pre-Chorus2 (cont')
        A                                                 (Build)

|-----------------------------------------------------------------------------
|-----------------------------------------------------------------------------
|-------2---------------------------------------------------------------------
|-------2---------------------------------------------------------------------
|-------0-------------------------------------------------0-0-0-0-0-0-0-0-----
|-----------------------------------------------------------------------------            
   And I can't help it      so you better let goooooo.. 


                                           
Chorus
        D    C    D          D    E    D           (Octave Slide)

|-----------------------------------------------------------------------------
|-----------------------------------------------------------------------------
|-------7----5----7----------7----9----7-------------10------9----------------         SL   SL              SL   SL                   SL
|-------7----5----7----------7----9----7--------------------------------------
|-------5----3----5----------5----7----5----5-5-5----8-------7----------------
|-----------------------------------------------------------------------------             
   M I N U S  L O V E       M I N U S  L O V E

  

                                           
Chorus
        D    C    D           G                     A

|-----------------------------------------------------------------------------
|-----------------------------3-----------------------------------------------                                                               PH  B
|-------7----5----7-----------0---------------------2-----------2--(15)-------         SL   SL                             PO
|-------7----5----7-----------0------------8-8--5---2-------------------------
|-------5----3----5---------------------------------0-------------------------
|-----------------------------3-----------------------------------------------              
   M I N U S  L O V E       Gotta, Gotta find   that love of mine


Verse
Pre-Chorus 1
Verse
Pre-Chorus 2
Chorus

Solo (same as verse)

Pre-Chorus 2
Verse
Pre-Chorus 1
Verse
Pre-Chorus 2
Chorus

Outro Solo (Same as verse) Fade out