Tabulature for "She's In Love"
Off the album "Gutter Ballet"
Written by Savatage

Transcribed by Patrick van der Horst boudie@xoommail.com



Intro with trem. Bar effects for approx. 17 secs
------------------------------------------------------------------------------

------------------------------------------------------------------------------
------------------------------------------------------------------------------
------------------------------------------------------------------------------
--0----0----0----0----0----0-0-0-0-0--0-0----0---0---0----0-0-0-0-0--0-0------
------------------------------------------------------------------------------
       PM        PM        PM-----]   PM-]       PM       PM------]  PM             


------------------------------------------------------------------------------
------------------------------------------------------------------------------

----------------------------------------------------------5b------------------
----------------------------------------------------------5b------------------
-0---0---0----0-0-0-0-0--0-0----0---0---0----0----0-0-0-0-----0----0----0-----
------------------------------------------------------------------------------
     PM       PM------]  PM-]       PM       PM   PM----]          PM                                     

------------------------------------------------------------------------------
------------------------------------------------------------------------------
--------------------------5--------7------------------------------------------
--------------------------5--------7------------------------------------------
-0-0-0-0-0--0-0---0---0-0----0-0-0-----0---0---0---0-0-0-0-0--0-0---0---0-0---
------------------------------------------------------------------------------
 PM------]  PM-]      PM-]   PM--]         PM      PM------]  PM-]      PM-]                                           
                                       _______________________________________
            Play Fill 1               [Play the first time this
------------------------------------------------------------------------------
------------------------------------------------------------------------------
-7---------10----------12-------5---------------------------------------------
-7---------10----------12-------5---------------------------------------------
-----0-0-0-----------0--------0--------0--0-0-0-0-0---0-0---0---0---0---0-0---
------------------------------------------------------------------------------
     PM--]                                PM------]   PM--------------------                                      
_______  __________________________________________________
        [The second time this
-------|----------------------------------------------------------------------

-------|----------------------------------------------------------------------
-----5-|----------------------------------------------------------------------
-----5-|----------------------------------------------------------------------
-0-0---|-0--0-0-0---0-0-0-0-0---0-0---0---0-0-0---0-0-0-0---------------------
-------|--------------------------------------------------2-------------------
------]                                                                              
                                          _______________________
Fill1                                    [Play first time this one after fill 1
--------------------------15b17r15b17r15--|------------------------------------
-13b15r13b15r13---------------------------|----3b5~~~~~~~~t15~~~~~~~r3---------
------------------------------------------|------------------------------------
------------------------------------------|------------------------------------
------------------------------------------|------------------------------------
------------------------------------------|------------------------------------
                                                        Create AH                   
 _______________________________________
[Second time play this
----------------------------------------
-3b5~~~~~~~~~~~~~~r3~~~~----------------
------------------create Harm.----------
----------------------------------------
----------------------------------------
-----------------------------------8\---
                                                                              

------------------------------------------------------------------------------
------------------------------------------------------------------------------
------------------------------------------------------------------------------
------------------------------------------------------------------------------
------------------------------------------------------------------------------
-2---0---2---0---2---0-2-2-0---2---0---2---0---2---0-2-2-0---2---0---2---0----
                                                                              

----------------------------------------------|-------------------------------
----------------------------------------------|-------------------------------
--------------------------------------------2-|--------------------------2----
--------------------------------------------2-|--------------------------2----
--------------------------------------------0-|--------------------------0----
-2---0-2-2-0---2---0---2---0---2---0-2-2-0----|--0---2---0---2---0---2--------
                                   Ahhhhhhhhhh She likes what she sees    

------------------------------------------------------------------------------                                                                             
------------------------------------------------------------------------------
--------------------------2------------------------------2--------------------
--------------------------2------------------------------2--------------------
--------------------------0------------------------------0--------------------
--0---2---0---2---0---2----------0---2---0---2---0---2------------------------
Starts to drop to her knees,     Gazing with an apetite

------------------------------------------------------------------------------                                                                             
------------------------------------------------------------------------------
--------------------------2------------------------------2--------------------
--------------------------2------------------------------2--------------------
--------------------------0------------------------------0--------------------
--0---2---0---2---0---2----------0---2---0---2---0---2------------------------
Licks her lips in sheer delight,  She's one of a kind  

------------------------------------------------------------------------------                                                                             
------------------------------------------------------------------------------
--------------------------2------------------------------2--------------------
--------------------------2------------------------------2--------------------
--------------------------0------------------------------0--------------------
--0---2---0---2---0---2----------0---2---0---2---0---2------------------------
A sight for sore eyes.           It's all she needs to be 

------------------------------------------------------------------------------
------------------------------------------------------------------------------
-------------------------4----------------------------------------------------
-------------------------4----------------------------------------------------
-------------------------2------2/5---p4-h5--4^-------------------------------
-0---2---0---2---0---2----------------------------0---2---0--2---0-2-2-0-2----
  Hap-   py                    I bet she never knew it would taste so good.                                                         
     
                        Fill 2          Fill3        Fill 4         Fill 5
-----------------------|---------------|------------|--------------|----------
-----------------------|---------------|------------|--------------|----------
------------------5----|--2.2^~~~~~----|-7~~~b9~~~r7|-20b23--------|-7b9r7\---
------------------5----|------------0\-|------------|-------x\-----|----------
-----------------------|---------------|------------|-------x\-----|----------
-0---2---0---2---------|---------------|------------|-----------15\|----------
                          Harm         Switch pickup                                    
                                        selector

Chorus
Second time play Fill 3
------------------------------------------------------------------------------
------------------------------------------------------------------------------
--------------------------5--------7------------------------------------------
--------------------------5--------7------------------------------------------
-0-0-0-0-0--0-0---0---0-0----0-0-0-----0---0---0---0-0-0-0-0--0-0---0---0-0---
------------------------------------------------------------------------------
 PM------]  PM-]      PM-]   PM--]         PM      PM------]  PM-]      PM-]                                           
                     She's in Love
                                       _______________________________________
            Play Fill 1               [Play the first time this
------------------------------------------------------------------------------
------------------------------------------------------------------------------
-7---------10----------12-------5---------------------------------------------
-7---------10----------12-------5---------------------------------------------
-----0-0-0-----------0--------0--------0--0-0-0-0-0---0-0---0---0---0---0-0---
------------------------------------------------------------------------------
     PM--]                                PM------]   PM--------------------                                      
_______  __________________________________________________
        [The second time this and Fill 5.
-------|----------------------------------------------------------------------
-------|----------------------------------------------------------------------
-----5-|----------------------------------------------------------------------
-----5-|----------------------------------------------------------------------
-0-0---|-0--0-0-0---0-0-0-0-0---0-0---0---0-0-0---0-0-0-0---------------------
-------|--------------------------------------------------2-------------------
------]                                                                              
                                          
------------------------------------------------------------------------------
------------------------------------------------------------------------------
------------------------------------------------------------------------------
------------------------------------------------------------------------------
------------------------------------------------------------------------------
-2---0---2---0---2---0-2-2-0---2---0---2---0---2---0-2-2-0---2---0---2---0----
                                                                              
----------------------------------------------|-------------------------------
----------------------------------------------|-------------------------------
--------------------------------------------2-|--------------------------2----
--------------------------------------------2-|--------------------------2----
--------------------------------------------0-|--------------------------0----
-2---0-2-2-0---2---0---2---0---2---0-2-2-0----|--0---2---0---2---0---2--------
                                   Ahhhhhhhhhh She loves to please    

------------------------------------------------------------------------------                                                                             
------------------------------------------------------------------------------
--------------------------2------------------------------2--------------------
--------------------------2------------------------------2--------------------
--------------------------0------------------------------0--------------------
--0---2---0---2---0---2----------0---2---0---2---0---2------------------------
Kiss of life her speciality    Oh, how well she knows,

------------------------------------------------------------------------------                                                                             
------------------------------------------------------------------------------
--------------------------2------------------------------2--------------------
--------------------------2------------------------------2--------------------
--------------------------0------------------------------0--------------------
--0---2---0---2---0---2----------0---2---0---2---0---2------------------------
just to make it grow             She's one of a kind
------------------------------------------------------------------------------                                                                             
------------------------------------------------------------------------------
--------------------------2------------------------------2--------------------
--------------------------2------------------------------2--------------------
--------------------------0------------------------------0--------------------
--0---2---0---2---0---2----------0---2---0---2---0---2------------------------
A sight for sore eyes.           It's all she needs to be
 
                                                         /w fill 2 second time
------------------------------------------------------------------------------
------------------------------------------------------------------------------
-------------------------4----------------------------------------------------
-------------------------4----------------------------------------------------
-------------------------2------2/5---p4-h5--4^-------------------------------
-0---2---0---2---0---2----------------------------0---2---0--2---0-2-2-0-2----
  Hap-   py                    I bet she never knew it would taste so good.                                                         
     
                        Fill 2          Fill3        Fill 4         Fill 5
-----------------------|---------------|------------|--------------|----------
-----------------------|---------------|------------|--------------|----------
------------------5----|--2.2^~~~~~----|-7~~~b9~~~r7|-20b23--------|-7b9r7\---
------------------5----|------------0\-|------------|-------x\-----|----------
-----------------------|---------------|------------|-------x\-----|----------
-0---2---0---2---------|---------------|------------|-----------15\|----------
                          Harm         Switch pickup                                    
                                        selector

Chorus
Play second time Fill 4
------------------------------------------------------------------------------
------------------------------------------------------------------------------
--------------------------5--------7------------------------------------------
--------------------------5--------7------------------------------------------
-0-0-0-0-0--0-0---0---0-0----0-0-0-----0---0---0---0-0-0-0-0--0-0---0---0-0---
------------------------------------------------------------------------------
 PM------]  PM-]      PM-]   PM--]         PM      PM------]  PM-]      PM-]                                           
                     She's in Love..... etc.
                                       _______________________________________
            Play Fill 1               [Play the first time this
------------------------------------------------------------------------------
------------------------------------------------------------------------------
-7---------10----------12-------5---------------------------------------------
-7---------10----------12-------5---------------------------------------------
-----0-0-0-----------0--------0--------0--0-0-0-0-0---0-0---0---0---0---0-0---
------------------------------------------------------------------------------
     PM--]                                PM------]   PM--------------------                                      
_______  __________________________________________________
        [The second time this.
-------|----------------------------------------------------------------------
-------|----------------------------------------------------------------------
-----5-|----------------------------------------------------------------------
-----5-|----------------------------------------------------------------------
-0-0---|-0--0-0-0---0-0-0-0-0---0-0---0---0-0-0---0-0-0-0---------------------
-------|--------------------------------------------------2-------------------
------]                                                                              


------------------------------------------------------------------------------
------------------------------------------------------------------------------
-7---/9----10---\9-------7---/9-----------------------7--/9----12--\10----10--
-5---/7-----8---\7-------5---/7-----------------------5--/7----10--\-8-----8--
----------------------------------0---0-0-0---0-0-0-0-------------------------
------------------------------------------------------------------------------
                                  It must be love, yeah.                                            

------------------------------------------------------------------------------
------------------------------------------------------------------------------
---\9----------------------7---/9----10--\9------7----/9----------------------
---\7----------------------5---/7-----8--\7------5----/7----------------------
-------0---0-0-0---0-0-0-0-------------------------------0---0-0-0---0-0-0-0--
------------------------------------------------------------------------------
                                                                              

-------------------------------------------------
-------------------------------------------------
-7--/9----12--\10---10----/9-----7----\5---------
-5--/7----10--\-8----8----/7-----5----\3-----2---
-------------------------------------------------
---------------------------------------------0---
  
                                         ______________  ___________________                                                                            
Play this under solo                    [1.2.3.         [4.
-------------------------------------------------------|----------------------
-------------------------------------------------------|----------------------
-------------------------------------------------------|----------------------
--0---2---0---2---0-2-2-0---2---0---2---0---2---0-2-2-0|0---2---0---2---0-2---
-------------------------------------------------------|----------------------
-------------------------------------------------------|----------------------

_____________________                                                                              

----------------------
----------------------
----------------------
-2-0------------------
----------------------
------2----------5----
After that play this
                                         ______________   ____________________
                                        [1.2.3.         [4.
-------------------------------------------------------|----------------------
-------------------------------------------------------|----------------------
-------------------------------------------------------|----------------------
-------------------------------------------------------|----------------------
--0---2---0---2---0-2-2-0---2---0---2---0---2---0-2-2-0|0---2---0---2---0-2---
-------------------------------------------------------|----------------------

_____________________                                                                              

----------------------
----------------------
----------------------
----------------------
-2-0------------------
--------2-------------

Followed by this (still under the solo)  _____________  ______________________
                                        [1.2.3.       [4.
------------------------------------------------------|-----------------------
------------------------------------------------------|-----------------------
------------------------------------------------------|-----------------------
------------------------------------------------------|---------------------9-
------------------------------------------------------|---------------------7-
-3---5---3---5---3-5-5-3-5---3---5---3---5---3-5-5-3-5|-3---5---3---5---3-----
 Then goto this riff                                                                             

Solo part
---------------------------------------19p12h17--19p17p12--19p12h17--19p17p12-
----------------15b17~~~~~~~~~~~~~~-------------------------------------------
------------------------------------------------------------------------------
------------------------------------------------------------------------------
------------------------------------------------------------------------------
-0\---------------------------------------------------------------------------
  Dive /w trem.                                                                            

-19p12h15--19p12--19p12h17--19p12h17--19p17p12--19p12h17--19p17p12--19p12h15--

------------------------------------------------------------------------------
------------------------------------------------------------------------------
------------------------------------------------------------------------------
------------------------------------------------------------------------------
------------------------------------------------------------------------------
                                                                              

-19p15p12--19p12h17--19p12h17--19p17h12--19p12h17--19p17p12--19p17p12--19p12--
------------------------------------------------------------------------------
------------------------------------------------------------------------------
------------------------------------------------------------------------------
------------------------------------------------------------------------------
------------------------------------------------------------------------------
                                                                              

------------------------------------------------------------------------------
-19p12h17--19p17p12--19p12h17--19p17p12--19p12h17--19p12h17--19p12--h12-------
------------------------------------------------------------------------------
------------------------------------------------------------------------------
------------------------------------------------------------------------------
------------------------------------------------------------------------------
                                                                              

------------------------------------------------------------------------------
------------------------------------------------------------------------------
-16p14--16p9h14--16p9h14--16p9h14--16p9h14--16p9h14--16p9---------------------
-----------------------------------------------------------16p914--16p9h14----
------------------------------------------------------------------------------
------------------------------------------------------------------------------
                                                                              

------------------------------------------------------------------------------
------------------------------------------------------------------------------
-------------------------------------------------------------------9----------
-16p9h14--16p9h14--16p9h14--16p9h14--16---------------------------------------
-----------------------------------------h9--16p9-----12---12---12------------
------------------------------------------------------------------------------
                                                                              

------------------------------------------------------------------------------
-------------------------------17b19---17b19r17b19--r17--p14h17p14------------
-14---p12h14p12h14p12p11-------------------------------------------16b18------

------------------------------------------------------------------------------
------------------------------------------------------------------------------
------------------------------------------------------------------------------
                                                                              

-----------------------------------------/17--p14-----------------11h14\11p8--
-14h17p14-------14-------20b22---20b22-------------------------13-------------
----------16b18------------------------------------17p14\11h14----------------
------------------------------------------------------------------------------
------------------------------------------------------------------------------
------------------------------------------------------------------------------
                                                                              

------------8h11----9---------------------------------------------------------
-10---------------------------------------------------------------------------
----11p8h11-----------8p5---5b7r5/-----0\-------------------------------------
------------------------------------------------------------------------------
------------------------------------------------------------------------------
------------------------------------------------------------------------------
                                                                              

------------------------------------------------------------------------------
------------------------------------------------------------------------------
------------------------------------------------------------------------------
-9---7---9\-----------------10----9---10\----------------9--9--7--------------
-7---5---7\------------------8----7----8\----------------7--7--5--7^----------
--------------0-0-0-0-0-0--------------------0-0-0-0-0-0----------------------
                                                                              

------------------------------------------------------------------------------
------------------------------------------------------------------------------
------------------------------------------------------------------------------
-------------10-------------------9---7--9\--------------10--9----------------
--------------8---7---8-----------7---5--7\---------------8--7--8-------------
-0-0-0-0-0-0--------------6-----0------------0-0-0-0-0-0----------------------
                                                                              

------------------------------------------------------------------------------
------------------------------------------------------------------------------
-----------------------------------------------------------5------------------
-------------9---7---9\------------------------------------5------------------
-------------7---5---7\-----------------8----7---8---10-----------------------
-0-0-0-0-0-0--------------0-0-0-0-0-0-----------------------------------------
                                                                              
Play first time /w Fill 6 and second time Fill 2
------------------------------------------------------------------------------
------------------------------------------------------------------------------
--------------------------5--------7------------------------------------------
--------------------------5--------7------------------------------------------
-0-0-0-0-0--0-0---0---0-0----0-0-0-----0---0---0---0-0-0-0-0--0-0---0---0-0---
------------------------------------------------------------------------------
 PM------]  PM-]      PM-]   PM--]         PM      PM------]  PM-]      PM-]                                           
                     She's in Love..... etc.
                                       _______________________________________
            Play Fill 1               [Play the first time this
------------------------------------------------------------------------------
------------------------------------------------------------------------------
-7---------10----------12-------5---------------------------------------------
-7---------10----------12-------5---------------------------------------------
-----0-0-0-----------0--------0--------0--0-0-0-0-0---0-0---0---0---0---0-0---
------------------------------------------------------------------------------
     PM--]                                PM------]   PM--------------------                                      
_______  __________________________________________________
        [The second time this.                               Fill 6
-------|----------------------------------------------------|-----------------
-------|----------------------------------------------------|-----------------
-----5-|----------------------------------------------------|7--7b8p5~~~~5----
-----5-|----------------------------------------------------|-----------------
-0-0---|-0--0-0-0---0-0-0-0-0---0-0---0---0-0-0---0-0-0-0---|-----------------
-------|--------------------------------------------------2-|-----------------
------]                                                                              

Play these at the end of the song!
                                     Harm.         Harm.
------------------------------------------------------------------------------
-20~~~~~~~\-------------------------------------------------------------------
-19b21~~~~\--------------------------3----0--------4--------------------------
--------------2---------------------------------------------------------------
--------------0/15\3---/15\---------------------------------------------------
------------------------------0-------------------------------0---------------
                               DIVE all the way through